ISO-10303-21;
HEADER;
FILE_DESCRIPTION (( 'STEP AP203' ),
    '1' );
FILE_NAME ('QB-CTZHWP-38.1-1310-M.STEP',
    '2020-12-24T01:37:12',
    ( '' ),
    ( '' ),
    'SwSTEP 2.0',
    'SolidWorks 2020',
    '' );
FILE_SCHEMA (( 'CONFIG_CONTROL_DESIGN' ));
ENDSEC;

DATA;
#1 = ADVANCED_FACE ( 'NONE', ( #173 ), #89, .T. ) ;
#2 = MANIFOLD_SOLID_BREP ( 'Ðý×', #44 ) ;
#3 = PERSON_AND_ORGANIZATION ( #82, #142 ) ;
#4 = ADVANCED_FACE ( 'NONE', ( #156 ), #106, .F. ) ;
#5 = APPROVAL_ROLE ( '' ) ;
#6 = CALENDAR_DATE ( 2020, 24, 12 ) ;
#7 = VERTEX_POINT ( 'NONE', #163 ) ;
#8 = COORDINATED_UNIVERSAL_TIME_OFFSET ( 8, 0, .AHEAD. ) ;
#9 = EDGE_LOOP ( 'NONE', ( #21, #98 ) ) ;
#10 = DIRECTION ( 'NONE',  ( 0.000000000000000000, 0.000000000000000000, 1.000000000000000000 ) ) ;
#11 = DIRECTION ( 'NONE',  ( -1.000000000000000000, -0.000000000000000000, -0.000000000000000000 ) ) ;
#12 = EDGE_CURVE ( 'NONE', #103, #87, #86, .T. ) ;
#13 = SECURITY_CLASSIFICATION ( '', '', #140 ) ;
#14 = DIRECTION ( 'NONE',  ( 0.000000000000000000, 0.000000000000000000, -1.000000000000000000 ) ) ;
#15 = APPROVAL_ROLE ( '' ) ;
#16 = DATE_AND_TIME ( #30, #59 ) ;
#17 =( NAMED_UNIT ( * ) SI_UNIT ( $, .STERADIAN. ) SOLID_ANGLE_UNIT ( ) );
#18 = PERSON_AND_ORGANIZATION ( #82, #142 ) ;
#19 = EDGE_CURVE ( 'NONE', #54, #7, #27, .T. ) ;
#20 = APPROVAL_PERSON_ORGANIZATION ( #63, #125, #5 ) ;
#21 = ORIENTED_EDGE ( 'NONE', *, *, #37, .T. ) ;
#22 = ADVANCED_FACE ( 'NONE', ( #68 ), #76, .T. ) ;
#23 = CC_DESIGN_SECURITY_CLASSIFICATION ( #13, ( #122 ) ) ;
#24 = DATE_AND_TIME ( #130, #46 ) ;
#25 = DATE_TIME_ROLE ( 'classification_date' ) ;
#26 = CARTESIAN_POINT ( 'NONE',  ( -3.000000000000000000, 0.000000000000000000, 0.000000000000000000 ) ) ;
#27 = LINE ( 'NONE', #157, #78 ) ;
#28 = DIRECTION ( 'NONE',  ( 0.000000000000000000, 0.000000000000000000, 1.000000000000000000 ) ) ;
#29 = DIRECTION ( 'NONE',  ( -1.000000000000000000, -0.000000000000000000, -0.000000000000000000 ) ) ;
#30 = CALENDAR_DATE ( 2020, 24, 12 ) ;
#31 = AXIS2_PLACEMENT_3D ( 'NONE', #26, #29, #143 ) ;
#32 = APPLICATION_CONTEXT ( 'configuration controlled 3d designs of mechanical parts and assemblies' ) ;
#33 = AXIS2_PLACEMENT_3D ( 'NONE', #171, #66, #10 ) ;
#34 = PRODUCT_DEFINITION_SHAPE ( 'NONE', 'NONE',  #128 ) ;
#35 = DIRECTION ( 'NONE',  ( -1.000000000000000000, -0.000000000000000000, -0.000000000000000000 ) ) ;
#36 = EDGE_LOOP ( 'NONE', ( #101, #65 ) ) ;
#37 = EDGE_CURVE ( 'NONE', #7, #87, #58, .T. ) ;
#38 = CARTESIAN_POINT ( 'NONE',  ( 3.000000000000000000, 0.000000000000000000, 25.39999999999999858 ) ) ;
#39 = DIRECTION ( 'NONE',  ( -1.000000000000000000, 0.000000000000000000, -0.000000000000000000 ) ) ;
#40 = ORIENTED_EDGE ( 'NONE', *, *, #12, .T. ) ;
#41 = LOCAL_TIME ( 9, 37, 12.00000000000000000, #159 ) ;
#42 = CALENDAR_DATE ( 2020, 24, 12 ) ;
#43 = COORDINATED_UNIVERSAL_TIME_OFFSET ( 8, 0, .AHEAD. ) ;
#44 = CLOSED_SHELL ( 'NONE', ( #1, #155, #22, #4 ) ) ;
#45 = APPLICATION_CONTEXT ( 'configuration controlled 3d designs of mechanical parts and assemblies' ) ;
#46 = LOCAL_TIME ( 9, 37, 12.00000000000000000, #8 ) ;
#47 = UNCERTAINTY_MEASURE_WITH_UNIT (LENGTH_MEASURE( 1.000000000000000082E-05 ), #129, 'distance_accuracy_value', 'NONE');
#48 = AXIS2_PLACEMENT_3D ( 'NONE', #139, #11, #28 ) ;
#49 = CC_DESIGN_APPROVAL ( #148, ( #128 ) ) ;
#50 = PERSON_AND_ORGANIZATION_ROLE ( 'classification_officer' ) ;
#51 = ORIENTED_EDGE ( 'NONE', *, *, #57, .T. ) ;
#52 = DIRECTION ( 'NONE',  ( -1.000000000000000000, -0.000000000000000000, -0.000000000000000000 ) ) ;
#53 = AXIS2_PLACEMENT_3D ( 'NONE', #79, #39, #134 ) ;
#54 = VERTEX_POINT ( 'NONE', #38 ) ;
#55 = PLANE ( 'NONE',  #53 ) ;
#56 = ORIENTED_EDGE ( 'NONE', *, *, #138, .F. ) ;
#57 = EDGE_CURVE ( 'NONE', #54, #103, #152, .T. ) ;
#58 = CIRCLE ( 'NONE', #31, 25.39999999999999858 ) ;
#59 = LOCAL_TIME ( 9, 37, 12.00000000000000000, #43 ) ;
#60 = PERSON_AND_ORGANIZATION ( #82, #142 ) ;
#61 = COORDINATED_UNIVERSAL_TIME_OFFSET ( 8, 0, .AHEAD. ) ;
#62 = VECTOR ( 'NONE', #52, 1000.000000000000000 ) ;
#63 = PERSON_AND_ORGANIZATION ( #82, #142 ) ;
#64 = DATE_AND_TIME ( #6, #41 ) ;
#65 = ORIENTED_EDGE ( 'NONE', *, *, #94, .F. ) ;
#66 = DIRECTION ( 'NONE',  ( -1.000000000000000000, -0.000000000000000000, -0.000000000000000000 ) ) ;
#67 = CARTESIAN_POINT ( 'NONE',  ( -3.000000000000000000, 3.110602869834276865E-15, -25.39999999999999858 ) ) ;
#68 = FACE_OUTER_BOUND ( 'NONE', #112, .T. ) ;
#69 = APPROVAL_DATE_TIME ( #16, #148 ) ;
#70 = MECHANICAL_CONTEXT ( 'NONE', #32, 'mechanical' ) ;
#71 = DATE_AND_TIME ( #174, #117 ) ;
#72 = SHAPE_DEFINITION_REPRESENTATION ( #34, #102 ) ;
#73 = AXIS2_PLACEMENT_3D ( 'NONE', #77, #133, #88 ) ;
#74 = ORIENTED_EDGE ( 'NONE', *, *, #19, .T. ) ;
#75 = APPROVAL_PERSON_ORGANIZATION ( #149, #166, #150 ) ;
#76 = CYLINDRICAL_SURFACE ( 'NONE', #167, 25.39999999999999858 ) ;
#77 = CARTESIAN_POINT ( 'NONE',  ( 3.000000000000000000, 0.000000000000000000, 0.000000000000000000 ) ) ;
#78 = VECTOR ( 'NONE', #118, 1000.000000000000000 ) ;
#79 = CARTESIAN_POINT ( 'NONE',  ( 3.000000000000001332, 19.05000000000000071, 0.000000000000000000 ) ) ;
#80 = PERSON_AND_ORGANIZATION ( #82, #142 ) ;
#81 = APPLICATION_PROTOCOL_DEFINITION ( 'international standard', 'config_control_design', 1994, #45 ) ;
#82 = PERSON ( 'UNSPECIFIED', 'UNSPECIFIED', 'UNSPECIFIED', ('UNSPECIFIED'), ('UNSPECIFIED'), ('UNSPECIFIED') ) ;
#83 = CC_DESIGN_PERSON_AND_ORGANIZATION_ASSIGNMENT ( #93, #91, ( #122 ) ) ;
#84 = AXIS2_PLACEMENT_3D ( 'NONE', #113, #170, #116 ) ;
#85 = ORIENTED_EDGE ( 'NONE', *, *, #37, .F. ) ;
#86 = LINE ( 'NONE', #105, #62 ) ;
#87 = VERTEX_POINT ( 'NONE', #67 ) ;
#88 = DIRECTION ( 'NONE',  ( 0.000000000000000000, 0.000000000000000000, 1.000000000000000000 ) ) ;
#89 = CYLINDRICAL_SURFACE ( 'NONE', #84, 25.39999999999999858 ) ;
#90 = PRODUCT_RELATED_PRODUCT_CATEGORY ( 'detail', '', ( #110 ) ) ;
#91 = PERSON_AND_ORGANIZATION_ROLE ( 'design_supplier' ) ;
#92 = CC_DESIGN_APPROVAL ( #166, ( #122 ) ) ;
#93 = PERSON_AND_ORGANIZATION ( #82, #142 ) ;
#94 = EDGE_CURVE ( 'NONE', #103, #54, #127, .T. ) ;
#95 = APPROVAL_STATUS ( 'not_yet_approved' ) ;
#96 = CC_DESIGN_APPROVAL ( #125, ( #13 ) ) ;
#97 = CC_DESIGN_PERSON_AND_ORGANIZATION_ASSIGNMENT ( #18, #121, ( #128 ) ) ;
#98 = ORIENTED_EDGE ( 'NONE', *, *, #138, .T. ) ;
#99 = CC_DESIGN_DATE_AND_TIME_ASSIGNMENT ( #123, #136, ( #128 ) ) ;
#100 = APPROVAL_STATUS ( 'not_yet_approved' ) ;
#101 = ORIENTED_EDGE ( 'NONE', *, *, #57, .F. ) ;
#102 = ADVANCED_BREP_SHAPE_REPRESENTATION ( 'QB-CTZHWP-38.1-1310-M', ( #2, #160 ), #165 ) ;
#103 = VERTEX_POINT ( 'NONE', #145 ) ;
#104 = CC_DESIGN_DATE_AND_TIME_ASSIGNMENT ( #24, #25, ( #13 ) ) ;
#105 = CARTESIAN_POINT ( 'NONE',  ( -1.614212418857619014, 3.110602869834276865E-15, -25.39999999999999858 ) ) ;
#106 = PLANE ( 'NONE',  #158 ) ;
#107 = PERSON_AND_ORGANIZATION_ROLE ( 'creator' ) ;
#108 = APPROVAL_STATUS ( 'not_yet_approved' ) ;
#109 = DIRECTION ( 'NONE',  ( 0.000000000000000000, 0.000000000000000000, 1.000000000000000000 ) ) ;
#110 = PRODUCT ( 'QB-CTZHWP-38.1-1310-M', 'QB-CTZHWP-38.1-1310-M', '', ( #70 ) ) ;
#111 = PERSON_AND_ORGANIZATION ( #82, #142 ) ;
#112 = EDGE_LOOP ( 'NONE', ( #114, #144, #74, #56 ) ) ;
#113 = CARTESIAN_POINT ( 'NONE',  ( -1.614212418857619014, 0.000000000000000000, 0.000000000000000000 ) ) ;
#114 = ORIENTED_EDGE ( 'NONE', *, *, #12, .F. ) ;
#115 = CC_DESIGN_PERSON_AND_ORGANIZATION_ASSIGNMENT ( #3, #107, ( #122 ) ) ;
#116 = DIRECTION ( 'NONE',  ( 0.000000000000000000, 0.000000000000000000, 1.000000000000000000 ) ) ;
#117 = LOCAL_TIME ( 9, 37, 12.00000000000000000, #119 ) ;
#118 = DIRECTION ( 'NONE',  ( -1.000000000000000000, -0.000000000000000000, -0.000000000000000000 ) ) ;
#119 = COORDINATED_UNIVERSAL_TIME_OFFSET ( 8, 0, .AHEAD. ) ;
#120 = CIRCLE ( 'NONE', #48, 25.39999999999999858 ) ;
#121 = PERSON_AND_ORGANIZATION_ROLE ( 'creator' ) ;
#122 = PRODUCT_DEFINITION_FORMATION_WITH_SPECIFIED_SOURCE ( 'ANY', '', #110, .NOT_KNOWN. ) ;
#123 = DATE_AND_TIME ( #42, #131 ) ;
#124 = APPROVAL_DATE_TIME ( #71, #166 ) ;
#125 = APPROVAL ( #100, 'UNSPECIFIED' ) ;
#126 = CC_DESIGN_PERSON_AND_ORGANIZATION_ASSIGNMENT ( #80, #164, ( #110 ) ) ;
#127 = CIRCLE ( 'NONE', #73, 25.39999999999999858 ) ;
#128 = PRODUCT_DEFINITION ( 'UNKNOWN', '', #122, #151 ) ;
#129 =( LENGTH_UNIT ( ) NAMED_UNIT ( * ) SI_UNIT ( .MILLI., .METRE. ) );
#130 = CALENDAR_DATE ( 2020, 24, 12 ) ;
#131 = LOCAL_TIME ( 9, 37, 12.00000000000000000, #61 ) ;
#132 = CARTESIAN_POINT ( 'NONE',  ( -3.000000000000001332, 19.05000000000000071, 0.000000000000000000 ) ) ;
#133 = DIRECTION ( 'NONE',  ( -1.000000000000000000, -0.000000000000000000, -0.000000000000000000 ) ) ;
#134 = DIRECTION ( 'NONE',  ( -0.000000000000000000, 0.000000000000000000, 1.000000000000000000 ) ) ;
#135 = DIRECTION ( 'NONE',  ( 1.000000000000000000, 0.000000000000000000, 0.000000000000000000 ) ) ;
#136 = DATE_TIME_ROLE ( 'creation_date' ) ;
#137 = CARTESIAN_POINT ( 'NONE',  ( 0.000000000000000000, 0.000000000000000000, 0.000000000000000000 ) ) ;
#138 = EDGE_CURVE ( 'NONE', #87, #7, #120, .T. ) ;
#139 = CARTESIAN_POINT ( 'NONE',  ( -3.000000000000000000, 0.000000000000000000, 0.000000000000000000 ) ) ;
#140 = SECURITY_CLASSIFICATION_LEVEL ( 'unclassified' ) ;
#141 = DIRECTION ( 'NONE',  ( 0.000000000000000000, 0.000000000000000000, 1.000000000000000000 ) ) ;
#142 = ORGANIZATION ( 'UNSPECIFIED', 'UNSPECIFIED', '' ) ;
#143 = DIRECTION ( 'NONE',  ( 0.000000000000000000, 0.000000000000000000, 1.000000000000000000 ) ) ;
#144 = ORIENTED_EDGE ( 'NONE', *, *, #94, .T. ) ;
#145 = CARTESIAN_POINT ( 'NONE',  ( 3.000000000000000000, 3.110602869834276865E-15, -25.39999999999999858 ) ) ;
#146 = CARTESIAN_POINT ( 'NONE',  ( -1.614212418857619014, 0.000000000000000000, 0.000000000000000000 ) ) ;
#147 = APPLICATION_PROTOCOL_DEFINITION ( 'international standard', 'config_control_design', 1994, #32 ) ;
#148 = APPROVAL ( #108, 'UNSPECIFIED' ) ;
#149 = PERSON_AND_ORGANIZATION ( #82, #142 ) ;
#150 = APPROVAL_ROLE ( '' ) ;
#151 = DESIGN_CONTEXT ( 'detailed design', #45, 'design' ) ;
#152 = CIRCLE ( 'NONE', #33, 25.39999999999999858 ) ;
#153 = APPROVAL_PERSON_ORGANIZATION ( #60, #148, #15 ) ;
#154 = CC_DESIGN_PERSON_AND_ORGANIZATION_ASSIGNMENT ( #111, #50, ( #13 ) ) ;
#155 = ADVANCED_FACE ( 'NONE', ( #172 ), #55, .F. ) ;
#156 = FACE_OUTER_BOUND ( 'NONE', #9, .T. ) ;
#157 = CARTESIAN_POINT ( 'NONE',  ( -1.614212418857619014, 0.000000000000000000, 25.39999999999999858 ) ) ;
#158 = AXIS2_PLACEMENT_3D ( 'NONE', #132, #169, #14 ) ;
#159 = COORDINATED_UNIVERSAL_TIME_OFFSET ( 8, 0, .AHEAD. ) ;
#160 = AXIS2_PLACEMENT_3D ( 'NONE', #137, #109, #135 ) ;
#161 = ORIENTED_EDGE ( 'NONE', *, *, #19, .F. ) ;
#162 = EDGE_LOOP ( 'NONE', ( #51, #40, #85, #161 ) ) ;
#163 = CARTESIAN_POINT ( 'NONE',  ( -3.000000000000000000, 0.000000000000000000, 25.39999999999999858 ) ) ;
#164 = PERSON_AND_ORGANIZATION_ROLE ( 'design_owner' ) ;
#165 =( GEOMETRIC_REPRESENTATION_CONTEXT ( 3 ) GLOBAL_UNCERTAINTY_ASSIGNED_CONTEXT ( ( #47 ) ) GLOBAL_UNIT_ASSIGNED_CONTEXT ( ( #129, #175, #17 ) ) REPRESENTATION_CONTEXT ( 'NONE', 'WORKASPACE' ) );
#166 = APPROVAL ( #95, 'UNSPECIFIED' ) ;
#167 = AXIS2_PLACEMENT_3D ( 'NONE', #146, #35, #141 ) ;
#168 = APPROVAL_DATE_TIME ( #64, #125 ) ;
#169 = DIRECTION ( 'NONE',  ( 1.000000000000000000, 0.000000000000000000, 0.000000000000000000 ) ) ;
#170 = DIRECTION ( 'NONE',  ( -1.000000000000000000, -0.000000000000000000, -0.000000000000000000 ) ) ;
#171 = CARTESIAN_POINT ( 'NONE',  ( 3.000000000000000000, 0.000000000000000000, 0.000000000000000000 ) ) ;
#172 = FACE_OUTER_BOUND ( 'NONE', #36, .T. ) ;
#173 = FACE_OUTER_BOUND ( 'NONE', #162, .T. ) ;
#174 = CALENDAR_DATE ( 2020, 24, 12 ) ;
#175 =( NAMED_UNIT ( * ) PLANE_ANGLE_UNIT ( ) SI_UNIT ( $, .RADIAN. ) );
ENDSEC;
END-ISO-10303-21;
